Heart in your Hand Guitar Tab

main riff
----------------------------------------------
----------------------------------------------
----------------------------------------------
----------------------------------------------
-------7--9--7---3----7h9--7----7--9--7---2---
--0-------------------------------------------

chorus
--------------------------------------------------------------
-----------------1--------------------1--------------------1--
--------------2-----2--------------0-----0--------------2-----
-----------2-----------2--------2-----------2--------2--------
--2--3--0-----------------0--3-----------------3--0-----------
--------------------------------------------------------------

---------------------------------
--------------------1------------
--2--------------0-----0---------
-----2--------2-----------2------
--------0--3-----------------3---
---------------------------------
HEART IN YOUR HAND (2)
Jimmy Page and Robert Plant
Tuning: standard
intro
--------------------------------------------------
--------------------------------------------------
--------------------------------------------------
--------2---2---------2-------2---2-------2-------
------2---2-----------------2---2-----------------
--0-------------0-2-3---0-----------0-2-3----0----
----------------------------------------------------------------
----------------------------------------------------------------
----------------------------------------------------------------
----2-----2-4b5-2------2----------2----2-----2-4b5-2-----2------
--2---2-3------------2---2----0h2----2---2-3-----------2---2----
---------------------------0---------------------------------0--
0:28
------------------------------------------
------------------------------------------
------------------------------------------
-----------2------2-4b5-2----2---4-2-4----
-0h2-----2---2-3-----------2---2-------2--
-----0------------------------------------
---------------------------------------
---------------------------------------
---------------------------------------
------2------2-4b5-2--------2---4-2-4--
----2---2-3----------2----2---2--------
---------------------------------------
0:47
-------------------------------------------------
--------1-----------------3-1-----------------1--
-----2-----2-----------0-------0-----------2-----
--------------2-----2-------------2-----2--------
--0--------------3-------------------0-----------
-------------------------------------------------

----------------------------
----------------3-1---------
--2-----------0-------------
-----2-----2----------------
--------3-------------------
---------------------3-2-0--
-------------------------------------------
-------------------------------------------
-------------------------------------------
--2---2-----2-4b5-2-------2-----2-4b5-4-2--
----2---2-3---------2---2---2-3------------
-------------------------------------------
1:07
-----------------------------------------------------
-----------------------------------------------------
-----------------------------------------------------
-----2-----2----2-----------2-----2-4b5-2-------2----
--------2-----2---2-----0h2---2-3---------2---2---2--
--0-----------------0--------------------------------
---------------------------------------------
---------------------------------------------
---------------------------------------------
------2--------2-----2-4b5-2----2---4-2-4----
--0h2---2----2---2-3----------2---2-------2--
----------0----------------------------------
---------------------------------
---------------------------------
---------------------------------
----2-----2-4b5-2-----2-----2-4--
--2---2-3-----------2---2-3------
---------------------------------
1:38
----------------------------------------------------
-----------1-----------------3-1-----------------1--
--------2-----2-----------0-------0-----------2-----
-----------------2-----2-------------2-----2--------
--0-----------------3-------------------0-----------
----------------------------------------------------

----------------------
-----------------3-1--
--2-----------0-------
-----2-----2----------
--------3-------------
----------------------
1:48
-----------------------------------------
-----------------------------------------
-----------------------------------------
------------2--4-2-4--------2---4-2-4----
---------2------------2---2---2-------2--
--0-2-3----------------------------------
------------------------------
------------------------------
------------------------------
----2-----2-4b5-2------2------
--2---2-3---------2--2---2----
---------------------------0--
instrumental part
2:34
--------------------------------
--------------------------------
--------------------------------
--------2-----2-4b5-2----2------
------2---2-3----------2---2----
--0--------------------------0--
2:42
----------------------------------------------
----------------------------------------------
----------------------------------------------
----2---2----2-----2-4b5-2------2----4-2-2-2--
--2---2----2---2-3------------2---2--3-2-3-2--
----------------------------------------------
-----------------------------------------
-----------------------------------------
-----------------------------------------
----2-----2-4b5-2------2----------2------
--2---2-3------------2---2------2---2-0--
---------------------------0-------------
3:02
----------------------------------------------
-----1-----------------3-1-----------------1--
--2-----2-----------0-------0-----------2-----
-----------2-----2-------------2-----2--------
--------------3-------------------0-----------
----------------------------------------------

----------------------------------
-----------------3-1--------------
--2-----------0-------0-----------
-----2-----2-------------2--------
--------3-------------------3-----
-------------------------------0--
3:12
---------------------------------------
---------------------------------------
---------------------------------------
-----2-----2-4b5-------2---4-2-4-2\----
-0h2---2-3-------2---2---2-3-3-3-3\-2--
---------------------------------------
---------------------------------------
---------------------------------------
---------------------------------------
----2---4-2-4-2\-------2---4-2-4-2\----
--2---2-3-3-3-3\-2---2---2-3-3-3-3\-2--
---------------------------------------
-----------------------------------
-----------------------------------
-----------------------------------
--4-4-4-2-4-2\-----4-4-4-2-4-2\----
--3-3-3-3-3-3\-2---3-3-3-3-3-3\-2--
-----------------------------------
----------------4--------|
----------------4-or-4---|
----------------4----4---|
--4-4-4-2-4-----6----4---|
--3-3-3-3-3----------2---|
-------------------------|

NOTATION
b= bend up
h= hammer on
\=slide down