House of Love Guitar Tab

Main Riff
---------------------
---------------------
---------------------
-----0-0-0-0---------
----5-5-5-5-5-4-5-4-0
---------------------

Riff 2
-----------------------------------------------------------------0----
-----------------------------------------------------------------3----
-----------------------------------------------------------------2----
3-3-2-2-2-2--2-2-2-2-3-3-2-2-2-2--2-2-2-3-3-2-2-2-2--2-2-2-2-3-3------
3-3-2-2-2-2--2-2-2-2-3-3-2-2-2-2--2-2-2-3-3-2-2-2-2--2-2-2-2-3-3------
1-1-0-0-0-0--0-0-0-0-1-1-0-0-0-0--0-0-0-1-1-0-0-0-0--0-0-0-0-1-1------

-----0------
-----3------
-----2------
-3-3--------
-3-3--------
-1-1--------

Riff 3 (repeat 2x)
-------------------------------------------
-------------------------------------------
-------------------------------------------
-3-3s5-5-5-5-5-5-5-5-5-5s7-7-7-7-7-7-7-7-7-
-3-3s5-5-5-5-5-5-5-5-5-5s7-7-7-7-7-7-7-7-7-
-1-1s3-3-3-3-3-3-3-3-3-3s5-5-5-5-5-5-5-5-5-

Riff 4 (repeat 2x)
-5-0-0-0-0-0-5-0-0-0-0-
-7-4-2-4-2-4-7-4-2-4-2-
-7-5-3-5-3-5-7-5-3-5-3-
-----------------------
-----------------------
-----------------------

Riff 5
--------------------------------------------
---------3--------0---------3---------0---0-
-----2----------2---------2---------2---2---
---2---2------2---------2---------2---------
--------------------------------------------
-0----------0---------0---------0-----------

Riff 5 (part 2) (repeat 2x)
----------------------------0-
----------------------------3-
-------0---0---------0---0--2-
-----3---3---------3---3------
---3-------------3------------
-1-------------1--------------