Nobody's Fault But Mine Guitar Tab


INTRO:
A5
e-|--------------------------------------------|
B-|--------------------------------------------|
G-|-------2---2----2---------2-----2--2--2--2--|
D-|-------2---2----2---------2-----------------|
A-|----0--0---0----0---------0-----------------|
E-|-------------------3b-h0--------------------|

             No Chord
e-|-----------------------------------------|
B-|-----------------------------------------|
G-|-2---------------------------------------|
D-|-2---2----2-----2------------------------|
A-|-0---0----0-----0------------------------|
E-|-------------------3b---0-----3/2--0--3--|

A5           D5        A5           N.C.           A5
e-|---------------------------------------|---------------------------||
B-|---------------------------------------|---------------------------||
G-|-----------------2---------------------|---------------------------||
D-|----2------------0---------2-----------|---------------2-----------||
A-|----0------0--3b--------3--0-----------|---------------0-----------||
E-|-------------------------------3b(4)---|-0-------0--3--------------||

VERSE:
A5                                                        N.C.
e-|---------------------------------|-------------------------------------|
B-|---------------------------------|-------------------------------------|
G-|-----2---------2-------2-----x---|-----2---2----2----------------------|
D-|-----2---------2-------2-----x---|-----2---2----2----------------------|
A-|--0--0---0-------------0-----x---|--0--0---0-------------------------0-|
E-|------------------3p0------------|-----------------3p0-0-0-3-0-2-0-3---|

A5               D5          N.C.                 A5
e-|-----------------------------|---------------------------||
B-|-----------------------------|---------------------------||
G-|-----2--2--2-------2---------|---------------------2-----||
D-|-----2--2--2-------0---------|---------------------2-----||
A-|--0--------0---3b-------3b---|----------------0----0-----||
E-|-----------------------------|-0-----3b---0--------------||