No Quarter Guitar Tab


12 String Acoustic with Chorus(let ring)
Tuning: DADGAD
These symbols-->  ||:  & :|| enclose the repeat areas, I like it, it's closer t
o real notation

INTRODUCTION:
D--12--------2-3-2-0--2--3--0------2-3-2-0--2--3--0--
A--12--------0--------0--0--0------0--------0--0--0--
G--12--------2--------0--0--0------2--------0--0--0--
D--12--------0--------0--0--0------0--------0--0--0--
A--12--------0--------3--5---------0--------3--5-----
D--12-----0-----------3--5------0-----------3--5-----
(harm)

||:
VOCAL START:
D-----------------------------2-3-2-0--2--3--0--
A-----------------------------0--------0--0--0--
G-----2--5--5--7--7--9--9-----2--------0--0--0--
D--------0--0--0--0--0--0-----0--------0--0--0--
A-----0--3--3--5--5--7--7-----0--------3--5-----
D--0-----------------------0-----------3--5-----
Walkin...


D---------------------------2-3-2-0--2--3--0----
A---------------------------0--------0--0--0----
G------5--5--5--7-----------2--------0--0--0----
D------0--0--0--0-----------0--------0--0--0----
A------3--3--3--5-----------0--------3--5-------
D--0--------------5------0-----------3--5-------
The Devil...
:|| x2


D---------------------------------------------------------------
A---------------------------------------------------------------
G-----2--5--5--7--7--9------------------------------------------
D--------0--0--0--0--0------------------------------------------
A-----0--3--3--5--5--7------1---0---1---0---1--->6--0--6--0--6--
D--0------------------------1---0---1---0---1--->6--0--6--0--6--
Carry news...         through...for me and you...


D---------------------------------------------------------------------
A---------------------------------------------------------------------
G-------------------------------------------7-7>8>7--7>8>7--7>8>7-----
D---------------------------------------------------------------------
A--6----6------6---6----5-----3--2-2>0------5-5>6>5--5>6>5--5>6>5-----
D--6----6------6---6----5-----3--2-2>0--------------------------------
they choose the path where no one goes

||:
D---------------------------------------------------------------------
A---------------------------------------------------------------------
G-------------------------------------------7-7>8>7--7>8>7--7>8>7-----
D---------------------------------------------------------------------
A--5----5------5---5----5-----3--2-2>0------5-5>6>5--5>6>5--5>6>5-----
D--5----5------5---5----5-----3--2-2>0--------------------------------

:|| x3
BACK TO TOP
Ending is same as introduction, end on harmonic at 7 or 12.