Shining In The Light Guitar Tab

Tuning
6 5 4 3 2 1
E A D G B E
E|----------------|----------------||
B|----------------|----------------||
G|----------------|----------------||
D|----------------|----------------||
A|----------------|----------------||
E|----------------|----------------||

E| ----------------|---0-------0----|----------------|---------------- |
B| -----7-7---777--|-----0-0-0-0----|----------------|---------2-2-22- |
G|o-77777-7---7777-|-6--6----6---6--|-2222222-2-22---|--222222-2-2-22-o|
D|o-77777-7------7-|7-7-------7---7-|-2222222-2-22---|-2222222-2-2-22-o|
A| -9999-----------|7-7-----------7-|-4444444-0-00---|-0000000-0-0-0-- |
E| ----------------|----------------|----------------|---------------- |

|                                                                     |
E| -------0---0----|---0---0---0----|----------------|---------------- |
B| ---0---0-----03-|-0---0-0-0---0--|----------------|---------2-2-22- |
G|o-2---2---2----2-|2-2---2---2---20|-2222222-2-22---|--222222-2-2-22-o|
D|o--4---4---4-----|2---------------|-2222222-2-22---|--222222-2-2-22-o|
A| ----------------|----------------|-4444444-0-00---|-0000000-0-0-0-- |
E| ----------------|----------------|----------------|---------------- |

E| ----------------|---0-------0----|----------------|---------------- |
B| -----7-7---777--|-----0-0-0-0----|----------------|---------2-2-22- |
G|o-77777-7---7777-|-6--6----6---6--|-2222222-2-22---|--222222-2-2-22-o|
D|o-77777-7------7-|7-7-------7---7-|-2222222-2-22---|-2222222-2-2-22-o|
A| -9999-----------|7-7-----------7-|-4444444-0-00---|-0000000-0-0-0-- |
E| ----------------|----------------|----------------|---------------- |

|                                                                     |
E| -------0---0----|---0---0---0----|----------------|---------------- |
B| ---0---0-----03-|-0---0-0-0---0--|----------------|---------2-2-22- |
G|o-2---2---2----2-|2-2---2---2---20|-2222222-2-22---|--222222-2-2-22-o|
D|o--4---4---4-----|2---------------|-2222222-2-22---|--222222-2-2-22-o|
A| ----------------|----------------|-4444444-0-00---|-0000000-0-0-0-- |
E| ----------------|----------------|----------------|---------------- |
People stealin' through the darkness...
From this shore my mem'ry wanders...

E|---0-------0----|---0-------0----|---0-------0----|---0-------0----|
B|--0--0-0-----0--|-----0-0--------|-----0-0--------|-----0-0--------|
G|11--------------|------------1313|9-------------9-|11----------1111|
D|----------------|----------------|----------------|----------------|
A|9---------------|------------1111|7-------------7-|9-----------9-9-|
E|----------------|0---------------|----------------|----------------|

|                                                                   |
E|---0-------0----|---0-------0----|---0-------0----|---0-------0----|
B|---0-0-0---0----|-0---0-0-----0--|3----0-0-----0--|-----0-0-2---0--|
G|-2----2--2------|--1---1--1------|2-----2--2------|-2----2---4--2--|
D|--4-------4-----|----------0-----|2---------2-----|--4-------------|
A|----------------|----------------|----------------|----------------|
E|--------------0-|0---------------|----------------|----------------|

E|---0-------0----|---0-------0----|---0-------0----|---0-------0----|
B|-----0-0--------|-----0-0--------|-----0-0-----0--|-----0-0-0---0--|
G|9-----------9913|------------1313|9---------------|11--------------|
D|----------------|----------------|----------------|----------------|
A|7-----------7711|------------1111|7---------------|9---------------|
E|----------------|0---------------|----------------|----------------|

|                                                                   |
E|---0-------0----|---0-------0----|---0-------0----|---0-------0----|
B|---0-0-0---0----|-0---0-0-----0--|-----0-0-----0--|-----0-0-----0--|
G|-2----2--2------|--1---1--1------|2-----2--2------|-2----2--2---2--|
D|--2-------2-----|----------0-----|2---------2-----|--4-------4-----|
A|----------------|----------------|----------------|----------------|
E|--------------0-|0---------------|----------------|----------------|
________________ ________________

|1.              |2.
E|2---------------|---0-------0----|---0---0---0----||
B|3---------------|-----0-0-----3--|---0---0---0----||
G|2--2--2---22--2-|-2----2--2---2--|-2---2---2------||
D|0--2--2---22--2-|--4-------4--4--|--2---2---2-----||
A|---0--0---00420-|----------------|----------------||
E|---0------00000-|----------------|----------------||

|                                                  |
E|----------------|-------0--------|---0---0---0----||
B|----------------|3---3----33-----|-0-0-0-0-0-0---0||
G|----------22--2-|2---2-2---2-----|--2---2---2-----||
D|----------22--2-|0---0-----4-----|----------------||
A|----------00420-|----------------|----------------||
E|----------00000-|----------------|----------------||

                                       3/4 time
E|----------------|----------------||----------------|2-----------|
B|9--9--9---------|9--9--9---------||9--9--9---------|3--2-----2--|
G|9--9--9---------|9--9--9---------||9--9--9---------|2--2-----2--|
D|9--9--9---------|9--9--9---------||9--9--9---------|0--2-----2--| Repeat
A|7--7--7---------|7--7--7---------||7--7--7---------|---0--4--0--| two
E|0--0--0---------|0--0--0---------||0--0--0---------|------------| times

E|---0-------0----|---0-------0----|---0-------0----|---0-------0----|
B|--0--0-0-----0--|-----0-0--------|-----0-0--------|-----0-0--------|
G|11--------------|------------1313|9-------------9-|11----------1111|
D|----------------|----------------|----------------|----------------|
A|9---------------|------------1111|7-------------7-|9-----------9-9-|
E|----------------|0---------------|----------------|----------------|

|                                                                   |
E|---0-------0----|---0-------0----|---0-------0----|---0-------0----|
B|---0-0-0---0----|-0---0-0-----0--|3----0-0-----0--|-----0-0-2---0--|
G|-2----2--2------|--1---1--1------|2-----2--2------|-2----2---4--2--|
D|--4-------4-----|----------0-----|2---------2-----|--4-------------|
A|----------------|----------------|----------------|----------------|
E|--------------0-|0---------------|----------------|----------------|

E|---0-------0----|---0-------0----|---0-------0----|---0-------0----|
B|-----0-0--------|-----0-0--------|-----0-0-----0--|-----0-0-0---0--|
G|9-----------9913|------------1313|9---------------|11--------------|
D|----------------|----------------|----------------|----------------|
A|7-----------7711|------------1111|7---------------|9---------------|
E|----------------|0---------------|----------------|----------------|

|                                                                   |
E|---0-------0----|---0-------0----|---0-------0----|---0-------0----|
B|---0-0-0---0----|-0---0-0-----0--|-----0-0-----0--|-----0-0-----0--|
G|-2----2--2------|--1---1--1------|2-----2--2------|-2----2--2---2--|
D|--2-------2-----|----------0-----|2---------2-----|--4-------4-----|
A|----------------|----------------|----------------|----------------|
E|--------------0-|0---------------|----------------|----------------|

                     3/4 time
E|---0-------0----|---0---0---0----|2-----------|
B|-----0-0-----3--|---0---0---0----|3--2-----2--|
G|-2----2--2---2--|-2---2---2------|2--2-----2--|
D|--4-------4--4--|--2---2---2-----|0--2-----2--|
A|----------------|----------------|---0--4--0--|
E|----------------|----------------|------------|

|                                              |
E|-------0--------|---0---0---0----|2-----------|
B|3---3----33-----|-0-0-0-0-0-0---0|3--2-----2--|
G|2---2-2---2-----|--2---2---2-----|2--2-----2--|
D|0---0-----4-----|----------------|0--2-----2--|
A|----------------|----------------|---0--4--0--|
E|----------------|----------------|------------|

                                       3/4 time
E|----------------|----------------|----------------|2-----------|
B|9--9--9---------|9--9--9---------|9--9--9---------|3--2-----2--|
G|9--9--9---------|9--9--9---------|9--9--9---------|2--2-----2--|
D|9--9--9---------|9--9--9---------|9--9--9---------|0--2-----2--| Repeat
A|7--7--7---------|7--7--7---------|7--7--7---------|---0--4--0--| two
E|0--0--0---------|0--0--0---------|0--0--0---------|------------| times

E|----------------|----------------|----------------|
B|9--9--9---------|9--9--9---------|9--9--9---------|
G|9--9--9---------|9--9--9---------|9--9--9---------|
D|9--9--9---------|9--9--9---------|9--9--9---------|
A|7--7--7---------|7--7--7---------|7--7--7---------|
E|0--0--0---------|0--0--0---------|0--0--0---------|

E|----------------|----------------|
B|----------------|----------------|
G|-2222222-2-22---|-2222222-2-22-2-|
D|-2222222-2-22---|-2222222-2-22-2-|
A|-4444444-0-00---|-0000000-0-00-0-|
E|----------------|----------------|

                                       3/4 time
E|----------------|----------------|----------------|2-----------|
B|9--9--9---------|9--9--9---------|9--9--9---------|3--2-----2--|
G|9--9--9---------|9--9--9---------|9--9--9---------|2--2-----2--|
D|9--9--9---------|9--9--9---------|9--9--9---------|0--2-----2--| Repeat
A|7--7--7---------|7--7--7---------|7--7--7---------|---0--4--0--| two
E|0--0--0---------|0--0--0---------|0--0--0---------|------------| times

E|----------------|----------------|----------------|----------------|
B|9--9--9---------|9--9--9---------|----------------|----------------|
G|9--9--9---------|9--9--9---------|-2222222-2-22---|-2222222-2-22-2-|
D|9--9--9---------|9--9--9---------|-2222222-2-22---|-2222222-2-22-2-|
A|7--7--7---------|7--7--7---------|-4444444-0-00---|-0000000-0-00-0-|
E|0--0--0---------|0--0--0---------|----------------|----------------|

E|----------------|
B|0---------------|
G|1---------------|
D|2---------------|
A|2---------------|
E|0---------------|