INTRO:(clean electric)

D        Dsus4 Dsus2 D     Dsus2 D   Csus2#11  Csus2   Cadd9   Csus2#11  
e-|-------2--2--3p2--0--2---2--2--0---2--|-------2--3--2--0--2---2--0---2--|
B-|--3----3--3-------3--3---3--3--3---3--|-------3--3--3--3--3---3--3---3--|
G-|--2-------2-------0--2---------2---2--|-------0--0--0--0--0------0---0--|
D-|--0------------------0----------------|---------------------------------|
A-|--------------------------------------|-0h3---------------3------3---3--|
E-|--------------------------------------|---------------------------------|

Gmaj7/B     G/B   G6/B  Gmaj7/B        D/A
e-|----------2--3--2--0--2----2--0---2---|-2------2----------||
B-|----------3--3--3--3--3----3--3---3---|-3------3----------||
G-|----------0--0--0--0--0-------0---0---|-2------2----------||
D-|--------------------------------------|-0------0----------||
A-|---0h2----------------2---------------|-0------0----------||
E-|--------------------------------------|-------------------||


BRIDGE:
Bm7
e-|-------------------------------------------|
B-|-------------------------------------------|
G-|-----7----7------7-----7--7------7---7-----|
D-|-----7----7------7-----7--7--9p7-7---7-----|
A-|---7h9----9-----------------------------9--|
E-|-----7----7---7-----7----------------------|
   

E
e-|---------------------------------------------------------|
B-|---------------------------------------------------------|
G-|---7/9---9------------------9-------------9-9---------9--|
D-|---7/9---9--------9/11-9----9-------------9-9h11p9----9--|
A-|---9/11----11/9-7--------11---11/9-7-9h11----------11----|
E-|---------------------------------------------------------|

Bm7                                          E      A
e-|------------------------------------|--------------------||
B-|------------------7-----------------|--9\-----2----------||
G-|-----7--7---7-----7--------7--------|--9\-----2----------||
D-|-----7--7---7-------9----7-7--------|--9\-----2----------||
A-|-9---9--9-7h9----------9------9--7--|--7\-----0----------||
E-|------------------------------------|--------------------||


SOLO 1:(with slap back echo)

D
e-|----------|-----------------------------------------|
B-|----------|-----------------------------------------|
G-|----------|--------------------------6--7--9--7--9--|
D-|----4--5--|-5/7-----4--5---7--5h7-7-----------------|
A-|----------|-----------------------------------------|
E-|----------|-----------------------------------------|

Cadd9
e-|-------------------------------------7------------------|
B-|---------------------------7--8--10-----10--8--7h8p7----|
G-|-(9)p7\6--7--7-----6--7--9---------------------------9--|
D-|--------------------------------------------------------|
A-|--------------------------------------------------------|
E-|--------------------------------------------------------|

G/B
e-|-----------------------------------7----------------7-------|
B-|----7h8--8----------------7--8/10-------------9/10------10--|
G-|--------------6--6--7--9---------------6h7/9----------------|
D-|------------------------------------------------------------|
A-|------------------------------------------------------------|
E-|------------------------------------------------------------|

D
e-|-------------------------------------10--10---|
B-|--8--10--8h10p8h10-7--------------------------|
G-|----------------------------------------------|
D-|----------------------------------------------|
A-|----------------------------------------------|
E-|----------------------------------------------|

                                                       hold
D                                                              bend
e-|----14--15p14--15p14--------------------------14--15p14-----------------|
B-|---------------------(17)r15------15-b--(17)------------(17)r15----15b--|
G-|------------------------------14--------------------------------14------|
D-|------------------------------------------------------------------------|
A-|------------------------------------------------------------------------|
E-|------------------------------------------------------------------------|

Cadd9
e-|--(17)---(17)----(17)---(17)---(17)--r15-----------||
B-|------------------------------------------14-------||
G-|---------------------------------------------------||
D-|---------------------------------------------------||
A-|---------------------------------------------------||
E-|---------------------------------------------------||