Walking Into Clarksdale Guitar Tab

Tuning: DGDGBD


Intro: Let ring
E|--------------------------------------------------------------|
B|--------------------------------------------------------------|
G|---2---2---2---2---2---2---2---2---2---2---2---2---2---2------|
D|--2---2---2---2---2---2---2---2---2---2---2---2---2---2-------|
A|-0---0---1---1---3---3---1---1---0---0---1---3---3---1--------|
E|--------------------------------------------------------------|


E|---------------------------------|----------------------------|
B|---------------------------------|-2/3\2----------------------|
G|---2---2---2---2---2---2---------|-2/3\2-----------REPEAT-----|
D|--2---2---2---2---2---2----------|-2/3\2-------------AS-------|
A|--------------------------/\-----|---------/\------NEEDED-----|
E|-3---3---2---2---1---1--3b--(4)-0|-------3b--(4)0-------------|