When The World Was Young Guitar Tab

Tuning: standard

0:08
--------------------------------------------
--5-7---5\3---2-3--0h2p0--------------------
-------------------------2------------------  x4
--0-0---0-0---0-0--0-0-0-0------------------
--------------------------------------------
--------------------------------------------

-----0----------------0-------0~--------------
-------3----3-----------3-----3~--------------
--2------2---------2----------0~--------------
------------------------------0~--------------
--------------4-----------2---2~--------------
----------------------------------------------

--------------------------------------------------------------------0~------
--2-3--2-3--2-3/5/8-7-8-7\3---2-3--2-3--2-3/5/8-7-8-7\3---2-3--2-3--0~------
--------------------------------------------------------------------2~------
--------------------------------------------------------------------2~------
----------------------------------------------------------------------------
----------------------------------------------------------------------------

1:16
--------------------------------------------
--5-7---5\3---2-3--0h2p0--------------------
-------------------------2------------------  x2
--0-0---0-0---0-0--0-0-0-0------------------
--------------------------------------------
--------------------------------------------

-----0---------------0-------0~--------------
-------3----3----------3-----3~--------------
--2------2---------2---------0~--------------
-----------------------------0~--------------
--------------4----------2---2~--------------
---------------------------------------------

----------------------------------------------------------------------0~------
--2-3--2-3--2-3/5/8-7-8-7\3----2-3--2-3--2-3/5/8-7-8-7\3----2-3--2-3--0~------
----------------------------------------------------------------------2~------
----------------------------------------------------------------------2~------
------------------------------------------------------------------------------
------------------------------------------------------------------------------

2:08
---------------------------------------------
----5-5\3----5-5\3----5-5\3------------------
---------------------------------0-----0-----  x3
-------------------------------0-----2-------
--5--------4--------2--------2-----4---------
---------------------------------------------

-----------------------------------------------
----5-5\3----5-5\3----5-5\3----------------3~--
-----------------------------3--2---3--2---2~--
-----------------------------3--2---3--2---0~--
--5--------4--------2--------------------------
-----------------------------------------------

--2-3-5-5---2-3-5-5-3-2------3----0-----------
------------------------5\3--3----2-----------
-----------------------------2----2-----------  x2
-----------------------------0----2-----------
--------------------------------0-------------
----------------------------------------------

3:20
----------------------------------------------
----5-5\3----5-5\3----5-5\3-------------------
---------------------------------0-------0----  x2
-------------------------------0-------2------
--5--------4--------2--------2-------4--------
----------------------------------------------

--2-3-5-5---2-3-5-5-3-2------3~---3--2--5-----------
------------------------5\3--3~---3--2--5-----------
-----------------------------4~---4--3--6-----------  x2
-----------------------------5~---4--4--7-----------
-----------------------------5~---5--4--7-----------
-----------------------------3~---3--3--5-----------

-----------------------------------------------
----5-5\3----5-5\3----5-5\3--------------------
---------------------------------0-------0-----  x2
-------------------------------0-------2-------
--5--------4--------2--------2-------4---------
-----------------------------------------------

--2-3-5-5---2-3-5-5-3-2------3~---3--2--5-----------
------------------------5\3--3~---3--2--5-----------
-----------------------------4~---4--3--6-----------  x2
-----------------------------5~---4--4--7-----------
-----------------------------5~---5--4--7-----------
-----------------------------3~---3--3--5-----------

4:54
-----0-----------0-----------0---------------------
-------3---3-------3---3-------3-------------------
--2------2-----------2-----------0-------0------0--  x2
---------------------------------------0------2----
--------------4-----------2----------2------4------
---------------------------------------------------

-----0-----------0-----------0-----------------------
-------3---3-------3---3-------3--------5\3-----5\3--
--2------2-----------2-----------0-------------------  
-----------------------------------------------------
--------------4-----------2----------2-------4-------
-----------------------------------------------------

-----0-----------0-----------0-----------------------
-------3---3-------3---3-------3-----------------3~--
--2------2-----------2-----------0---3-3-3-2-2-2-2~--
-------------------------------------3-3-3-2-2-2-0~--
--------------4-----------2--------------------------
-----------------------------------------------------

5:32
---------------------------------------------------------------
--2h3p2-3/5/7---2h3p2-3/5-5\---2h3p2-3-2-----------------------
----------------------------2------------4-6-6\2--2-2/4-4-4\2--
---------------------------------------------------------------
---------------------------------------------------------------
---------------------------------------------------------------

--------------------------------------------0~--|
-----------------------------------2-3-2-3--0~--|
--4/6-4/6\2--4/6-4/6\2--4/6-4/6\2-----------2~--|
--------------------------------------------2~--|
------------------------------------------------|
------------------------------------------------|


NOTATION:
h= hammer on
p= pull off
/= slide up
\= slide down
~= let ring