Wonderful Time Guitar Tab

TUNING: C# F# C# F# A# C#

INTRO:
C#-|------------0--0------12---7---9--|-4---2-----2-----|
A#-|------------0--0-------0---0---0--|-0---0-----0-----|
F#-|------------11-12--11h12---0---0--|-0---0-----0-----|
C#-|------------0---0------0---7--9---|-4---2-----2-----|
F#-|--------0------------------0------|-0---------------|
C#-|---------------------------0------|-0---------------|

C#-|-----5--5--/-7---2/4---|-2--0-------0--------0--||
A#-|-----0--0----0---0-----|-0--0-------------------||
F#-|-----0--0----0---0-----|-0--0-------------------||
C#-|-----5--5--/-7---2/4---|-2--0-------------------||
F#-|-----0--0--------0-----|-0--0---0--------0------||
C#-|-----0--0--------------|-0--0-------------------||