Yallah Guitar Tab



MAIN RIFF: (with distortion)


C5  B5  C5  B5        C5       D5  A5
e-|-----------------------------|---------------------|
B-|-----------------------------|---------------------|
G-|----5-\-4---5-\-4-----4-/-5--|-5-/-7---------------|
D-|----5-\-4---5-\-4-----4-/-5--|-5-/-7---2--2--------|
A-|-----------------------------|---------0--0--------|
E-|-----------------------------|---------------------|


C5  B5  C5  B5        C5       D5       E5  A5  
e-|-----------------------------|----------------------------||
B-|-----------------------------|----------------------------|| repeat
G-|----5-\-4---5-\-4-----4-/-5--|-5-/-7----7-/-9-------------||throughout
D-|----5-\-4---5-\-4-----4-/-5--|-5-/-7----7-/-9---2--2------||
A-|-----------------------------|------------------0--0------||
E-|-----------------------------|----------------------------||